ISO-10303-21;
HEADER;
FILE_DESCRIPTION (( 'STEP AP203' ),
    '1' );
FILE_NAME ('QB-CTZHWP-20-780-M.STEP',
    '2020-12-24T01:35:53',
    ( '' ),
    ( '' ),
    'SwSTEP 2.0',
    'SolidWorks 2020',
    '' );
FILE_SCHEMA (( 'CONFIG_CONTROL_DESIGN' ));
ENDSEC;

DATA;
#1 = VERTEX_POINT ( 'NONE', #78 ) ;
#2 = ORIENTED_EDGE ( 'NONE', *, *, #311, .T. ) ;
#3 = CC_DESIGN_DATE_AND_TIME_ASSIGNMENT ( #241, #111, ( #18 ) ) ;
#4 = VECTOR ( 'NONE', #218, 1000.000000000000000 ) ;
#5 = CYLINDRICAL_SURFACE ( 'NONE', #206, 12.69999999999999929 ) ;
#6 = CARTESIAN_POINT ( 'NONE',  ( -3.000000000000000444, 0.000000000000000000, 0.000000000000000000 ) ) ;
#7 = PERSON_AND_ORGANIZATION ( #165, #242 ) ;
#8 = DIRECTION ( 'NONE',  ( 1.000000000000000000, 0.000000000000000000, 0.000000000000000000 ) ) ;
#9 = CIRCLE ( 'NONE', #199, 12.69999999999999929 ) ;
#10 = CYLINDRICAL_SURFACE ( 'NONE', #304, 10.00000000000000000 ) ;
#11 = PERSON_AND_ORGANIZATION_ROLE ( 'creator' ) ;
#12 = CARTESIAN_POINT ( 'NONE',  ( -2.500000000000000444, 1.224646799147353256E-15, -10.00000000000000000 ) ) ;
#13 = COORDINATED_UNIVERSAL_TIME_OFFSET ( 8, 0, .AHEAD. ) ;
#14 = ORIENTED_EDGE ( 'NONE', *, *, #146, .F. ) ;
#15 = DIRECTION ( 'NONE',  ( 0.000000000000000000, 0.000000000000000000, 1.000000000000000000 ) ) ;
#16 = PLANE ( 'NONE',  #89 ) ;
#17 = FACE_OUTER_BOUND ( 'NONE', #185, .T. ) ;
#18 = PRODUCT_DEFINITION ( 'UNKNOWN', '', #53, #24 ) ;
#19 = PERSON_AND_ORGANIZATION ( #165, #242 ) ;
#20 = CARTESIAN_POINT ( 'NONE',  ( 2.500000000000000888, 0.000000000000000000, 0.000000000000000000 ) ) ;
#21 = CC_DESIGN_APPROVAL ( #230, ( #200 ) ) ;
#22 = DIRECTION ( 'NONE',  ( 0.000000000000000000, 0.000000000000000000, 1.000000000000000000 ) ) ;
#23 = ORIENTED_EDGE ( 'NONE', *, *, #319, .F. ) ;
#24 = DESIGN_CONTEXT ( 'detailed design', #221, 'design' ) ;
#25 = ORIENTED_EDGE ( 'NONE', *, *, #115, .F. ) ;
#26 = ADVANCED_FACE ( 'NONE', ( #169, #289 ), #157, .F. ) ;
#27 = AXIS2_PLACEMENT_3D ( 'NONE', #277, #47, #22 ) ;
#28 = EDGE_LOOP ( 'NONE', ( #286, #136 ) ) ;
#29 = PERSON_AND_ORGANIZATION_ROLE ( 'design_owner' ) ;
#30 = VERTEX_POINT ( 'NONE', #56 ) ;
#31 = DIRECTION ( 'NONE',  ( 0.000000000000000000, 0.000000000000000000, 1.000000000000000000 ) ) ;
#32 = EDGE_LOOP ( 'NONE', ( #159, #154 ) ) ;
#33 = APPROVAL_ROLE ( '' ) ;
#34 = AXIS2_PLACEMENT_3D ( 'NONE', #272, #114, #224 ) ;
#35 = LOCAL_TIME ( 9, 35, 53.00000000000000000, #13 ) ;
#36 = ORIENTED_EDGE ( 'NONE', *, *, #278, .T. ) ;
#37 = CARTESIAN_POINT ( 'NONE',  ( -1.614212418857619014, 0.000000000000000000, 0.000000000000000000 ) ) ;
#38 = COORDINATED_UNIVERSAL_TIME_OFFSET ( 8, 0, .AHEAD. ) ;
#39 = DIRECTION ( 'NONE',  ( 0.000000000000000000, 0.000000000000000000, 1.000000000000000000 ) ) ;
#40 = CARTESIAN_POINT ( 'NONE',  ( -1.614212418857619014, 0.000000000000000000, 0.000000000000000000 ) ) ;
#41 = EDGE_CURVE ( 'NONE', #1, #284, #295, .T. ) ;
#42 = DIRECTION ( 'NONE',  ( -1.000000000000000000, -0.000000000000000000, -0.000000000000000000 ) ) ;
#43 = DIRECTION ( 'NONE',  ( 0.000000000000000000, 0.000000000000000000, 1.000000000000000000 ) ) ;
#44 = DIRECTION ( 'NONE',  ( 0.000000000000000000, 0.000000000000000000, 1.000000000000000000 ) ) ;
#45 = APPROVAL_DATE_TIME ( #120, #230 ) ;
#46 = EDGE_CURVE ( 'NONE', #51, #256, #96, .T. ) ;
#47 = DIRECTION ( 'NONE',  ( -1.000000000000000000, -0.000000000000000000, -0.000000000000000000 ) ) ;
#48 = EDGE_LOOP ( 'NONE', ( #58, #80 ) ) ;
#49 = CIRCLE ( 'NONE', #76, 10.00000000000000000 ) ;
#50 = VERTEX_POINT ( 'NONE', #12 ) ;
#51 = VERTEX_POINT ( 'NONE', #259 ) ;
#52 = EDGE_CURVE ( 'NONE', #256, #51, #72, .T. ) ;
#53 = PRODUCT_DEFINITION_FORMATION_WITH_SPECIFIED_SOURCE ( 'ANY', '', #162, .NOT_KNOWN. ) ;
#54 = EDGE_LOOP ( 'NONE', ( #279, #231, #14, #237 ) ) ;
#55 = PERSON_AND_ORGANIZATION ( #165, #242 ) ;
#56 = CARTESIAN_POINT ( 'NONE',  ( 2.999999999999999112, 1.224646799147353256E-15, -10.00000000000000000 ) ) ;
#57 = DIRECTION ( 'NONE',  ( 1.000000000000000000, 0.000000000000000000, 0.000000000000000000 ) ) ;
#58 = ORIENTED_EDGE ( 'NONE', *, *, #46, .F. ) ;
#59 = PERSON_AND_ORGANIZATION ( #165, #242 ) ;
#60 = ORIENTED_EDGE ( 'NONE', *, *, #115, .T. ) ;
#61 = EDGE_CURVE ( 'NONE', #284, #183, #192, .T. ) ;
#62 = CYLINDRICAL_SURFACE ( 'NONE', #122, 10.00000000000000000 ) ;
#63 = SECURITY_CLASSIFICATION_LEVEL ( 'unclassified' ) ;
#64 = CARTESIAN_POINT ( 'NONE',  ( -1.614212418857619014, 1.224646799147353256E-15, -10.00000000000000000 ) ) ;
#65 = SHAPE_DEFINITION_REPRESENTATION ( #109, #261 ) ;
#66 = PRODUCT_RELATED_PRODUCT_CATEGORY ( 'detail', '', ( #162 ) ) ;
#67 = FACE_BOUND ( 'NONE', #217, .T. ) ;
#68 = CALENDAR_DATE ( 2020, 24, 12 ) ;
#69 = DIRECTION ( 'NONE',  ( 0.000000000000000000, 0.000000000000000000, 1.000000000000000000 ) ) ;
#70 = CALENDAR_DATE ( 2020, 24, 12 ) ;
#71 = PLANE ( 'NONE',  #287 ) ;
#72 = CIRCLE ( 'NONE', #240, 10.00000000000000000 ) ;
#73 = VECTOR ( 'NONE', #85, 1000.000000000000000 ) ;
#74 = ADVANCED_FACE ( 'NONE', ( #239 ), #10, .F. ) ;
#75 = VERTEX_POINT ( 'NONE', #299 ) ;
#76 = AXIS2_PLACEMENT_3D ( 'NONE', #167, #293, #213 ) ;
#77 = ORIENTED_EDGE ( 'NONE', *, *, #291, .T. ) ;
#78 = CARTESIAN_POINT ( 'NONE',  ( 3.000000000000000000, 0.000000000000000000, 12.69999999999999929 ) ) ;
#79 =( LENGTH_UNIT ( ) NAMED_UNIT ( * ) SI_UNIT ( .MILLI., .METRE. ) );
#80 = ORIENTED_EDGE ( 'NONE', *, *, #52, .F. ) ;
#81 = AXIS2_PLACEMENT_3D ( 'NONE', #128, #236, #214 ) ;
#82 = DIRECTION ( 'NONE',  ( -1.000000000000000000, -0.000000000000000000, -0.000000000000000000 ) ) ;
#83 = DIRECTION ( 'NONE',  ( 1.000000000000000000, 0.000000000000000000, 0.000000000000000000 ) ) ;
#84 = ORIENTED_EDGE ( 'NONE', *, *, #255, .T. ) ;
#85 = DIRECTION ( 'NONE',  ( -1.000000000000000000, -0.000000000000000000, -0.000000000000000000 ) ) ;
#86 = ADVANCED_FACE ( 'NONE', ( #203 ), #271, .F. ) ;
#87 = ORIENTED_EDGE ( 'NONE', *, *, #291, .F. ) ;
#88 = CALENDAR_DATE ( 2020, 24, 12 ) ;
#89 = AXIS2_PLACEMENT_3D ( 'NONE', #118, #329, #94 ) ;
#90 = FACE_OUTER_BOUND ( 'NONE', #318, .T. ) ;
#91 = DATE_AND_TIME ( #88, #331 ) ;
#92 = DIRECTION ( 'NONE',  ( 0.000000000000000000, 0.000000000000000000, 1.000000000000000000 ) ) ;
#93 = PERSON_AND_ORGANIZATION_ROLE ( 'classification_officer' ) ;
#94 = DIRECTION ( 'NONE',  ( -0.000000000000000000, 0.000000000000000000, 1.000000000000000000 ) ) ;
#95 = DIRECTION ( 'NONE',  ( -1.000000000000000000, -0.000000000000000000, -0.000000000000000000 ) ) ;
#96 = CIRCLE ( 'NONE', #219, 10.00000000000000000 ) ;
#97 = DIRECTION ( 'NONE',  ( -1.000000000000000000, -0.000000000000000000, -0.000000000000000000 ) ) ;
#98 = CC_DESIGN_PERSON_AND_ORGANIZATION_ASSIGNMENT ( #147, #93, ( #200 ) ) ;
#99 = DIRECTION ( 'NONE',  ( 0.000000000000000000, 0.000000000000000000, -1.000000000000000000 ) ) ;
#100 = CIRCLE ( 'NONE', #208, 10.00000000000000000 ) ;
#101 = ORIENTED_EDGE ( 'NONE', *, *, #46, .T. ) ;
#102 = ORIENTED_EDGE ( 'NONE', *, *, #126, .T. ) ;
#103 = CC_DESIGN_APPROVAL ( #301, ( #53 ) ) ;
#104 = ADVANCED_FACE ( 'NONE', ( #90 ), #62, .F. ) ;
#105 = DIRECTION ( 'NONE',  ( 0.000000000000000000, 0.000000000000000000, 1.000000000000000000 ) ) ;
#106 = CALENDAR_DATE ( 2020, 24, 12 ) ;
#107 = ORIENTED_EDGE ( 'NONE', *, *, #278, .F. ) ;
#108 = AXIS2_PLACEMENT_3D ( 'NONE', #116, #332, #44 ) ;
#109 = PRODUCT_DEFINITION_SHAPE ( 'NONE', 'NONE',  #18 ) ;
#110 = ORIENTED_EDGE ( 'NONE', *, *, #311, .F. ) ;
#111 = DATE_TIME_ROLE ( 'creation_date' ) ;
#112 = ORIENTED_EDGE ( 'NONE', *, *, #180, .F. ) ;
#113 = APPROVAL_STATUS ( 'not_yet_approved' ) ;
#114 = DIRECTION ( 'NONE',  ( -1.000000000000000000, 0.000000000000000000, -0.000000000000000000 ) ) ;
#115 = EDGE_CURVE ( 'NONE', #190, #188, #222, .T. ) ;
#116 = CARTESIAN_POINT ( 'NONE',  ( -1.614212418857619014, 0.000000000000000000, 0.000000000000000000 ) ) ;
#117 = DATE_AND_TIME ( #68, #313 ) ;
#118 = CARTESIAN_POINT ( 'NONE',  ( 2.500000000000000444, 10.00000000000000000, 0.000000000000000000 ) ) ;
#119 = DIRECTION ( 'NONE',  ( -1.000000000000000000, -0.000000000000000000, -0.000000000000000000 ) ) ;
#120 = DATE_AND_TIME ( #70, #297 ) ;
#121 = DIRECTION ( 'NONE',  ( 0.000000000000000000, 0.000000000000000000, 1.000000000000000000 ) ) ;
#122 = AXIS2_PLACEMENT_3D ( 'NONE', #253, #145, #39 ) ;
#123 = CC_DESIGN_APPROVAL ( #174, ( #18 ) ) ;
#124 = EDGE_CURVE ( 'NONE', #190, #30, #100, .T. ) ;
#125 = CARTESIAN_POINT ( 'NONE',  ( -2.500000000000000444, 10.00000000000000000, 0.000000000000000000 ) ) ;
#126 = EDGE_CURVE ( 'NONE', #75, #188, #149, .T. ) ;
#127 = ORIENTED_EDGE ( 'NONE', *, *, #124, .F. ) ;
#128 = CARTESIAN_POINT ( 'NONE',  ( 3.000000000000000000, 0.000000000000000000, 0.000000000000000000 ) ) ;
#129 = APPROVAL_STATUS ( 'not_yet_approved' ) ;
#130 = ORIENTED_EDGE ( 'NONE', *, *, #161, .T. ) ;
#131 =( NAMED_UNIT ( * ) SI_UNIT ( $, .STERADIAN. ) SOLID_ANGLE_UNIT ( ) );
#132 = DIRECTION ( 'NONE',  ( 0.000000000000000000, 0.000000000000000000, -1.000000000000000000 ) ) ;
#133 = CALENDAR_DATE ( 2020, 24, 12 ) ;
#134 = AXIS2_PLACEMENT_3D ( 'NONE', #307, #195, #69 ) ;
#135 = APPROVAL_PERSON_ORGANIZATION ( #290, #174, #33 ) ;
#136 = ORIENTED_EDGE ( 'NONE', *, *, #126, .F. ) ;
#137 = ORIENTED_EDGE ( 'NONE', *, *, #52, .T. ) ;
#138 = LINE ( 'NONE', #317, #73 ) ;
#139 = FACE_OUTER_BOUND ( 'NONE', #243, .T. ) ;
#140 = CIRCLE ( 'NONE', #194, 10.00000000000000000 ) ;
#141 = AXIS2_PLACEMENT_3D ( 'NONE', #238, #266, #296 ) ;
#142 = PLANE ( 'NONE',  #34 ) ;
#143 = CARTESIAN_POINT ( 'NONE',  ( -1.614212418857619014, 0.000000000000000000, 10.00000000000000000 ) ) ;
#144 = COORDINATED_UNIVERSAL_TIME_OFFSET ( 8, 0, .AHEAD. ) ;
#145 = DIRECTION ( 'NONE',  ( -1.000000000000000000, -0.000000000000000000, -0.000000000000000000 ) ) ;
#146 = EDGE_CURVE ( 'NONE', #268, #183, #9, .T. ) ;
#147 = PERSON_AND_ORGANIZATION ( #165, #242 ) ;
#148 = CARTESIAN_POINT ( 'NONE',  ( 2.500000000000000888, 0.000000000000000000, 10.00000000000000000 ) ) ;
#149 = CIRCLE ( 'NONE', #309, 10.00000000000000000 ) ;
#150 = FACE_OUTER_BOUND ( 'NONE', #310, .T. ) ;
#151 = APPLICATION_CONTEXT ( 'configuration controlled 3d designs of mechanical parts and assemblies' ) ;
#152 = UNCERTAINTY_MEASURE_WITH_UNIT (LENGTH_MEASURE( 1.000000000000000082E-05 ), #79, 'distance_accuracy_value', 'NONE');
#153 = VECTOR ( 'NONE', #119, 1000.000000000000000 ) ;
#154 = ORIENTED_EDGE ( 'NONE', *, *, #319, .T. ) ;
#155 = EDGE_LOOP ( 'NONE', ( #283, #77, #314, #101 ) ) ;
#156 = ORIENTED_EDGE ( 'NONE', *, *, #61, .F. ) ;
#157 = PLANE ( 'NONE',  #275 ) ;
#158 = AXIS2_PLACEMENT_3D ( 'NONE', #176, #95, #325 ) ;
#159 = ORIENTED_EDGE ( 'NONE', *, *, #146, .T. ) ;
#160 = CARTESIAN_POINT ( 'NONE',  ( 3.000000000000000000, 1.555301434917138433E-15, -12.69999999999999929 ) ) ;
#161 = EDGE_CURVE ( 'NONE', #284, #1, #280, .T. ) ;
#162 = PRODUCT ( 'QB-CTZHWP-20-780-M', 'QB-CTZHWP-20-780-M', '', ( #211 ) ) ;
#163 = CARTESIAN_POINT ( 'NONE',  ( -1.614212418857619014, 1.555301434917138433E-15, -12.69999999999999929 ) ) ;
#164 = DIRECTION ( 'NONE',  ( -1.000000000000000000, -0.000000000000000000, -0.000000000000000000 ) ) ;
#165 = PERSON ( 'UNSPECIFIED', 'UNSPECIFIED', 'UNSPECIFIED', ('UNSPECIFIED'), ('UNSPECIFIED'), ('UNSPECIFIED') ) ;
#166 = VERTEX_POINT ( 'NONE', #298 ) ;
#167 = CARTESIAN_POINT ( 'NONE',  ( 2.999999999999999112, 0.000000000000000000, 0.000000000000000000 ) ) ;
#168 = APPROVAL_PERSON_ORGANIZATION ( #303, #230, #177 ) ;
#169 = FACE_BOUND ( 'NONE', #48, .T. ) ;
#170 = ADVANCED_FACE ( 'NONE', ( #17 ), #225, .F. ) ;
#171 = CARTESIAN_POINT ( 'NONE',  ( -3.000000000000000000, 1.555301434917138433E-15, -12.69999999999999929 ) ) ;
#172 = FACE_OUTER_BOUND ( 'NONE', #322, .T. ) ;
#173 = CARTESIAN_POINT ( 'NONE',  ( -1.614212418857619014, 0.000000000000000000, 10.00000000000000000 ) ) ;
#174 = APPROVAL ( #129, 'UNSPECIFIED' ) ;
#175 = DIRECTION ( 'NONE',  ( 0.000000000000000000, 0.000000000000000000, 1.000000000000000000 ) ) ;
#176 = CARTESIAN_POINT ( 'NONE',  ( -1.614212418857619014, 0.000000000000000000, 0.000000000000000000 ) ) ;
#177 = APPROVAL_ROLE ( '' ) ;
#178 = DIRECTION ( 'NONE',  ( 1.000000000000000000, 0.000000000000000000, 0.000000000000000000 ) ) ;
#179 = CLOSED_SHELL ( 'NONE', ( #334, #74, #104, #249, #170, #86, #26, #187, #205, #270 ) ) ;
#180 = EDGE_CURVE ( 'NONE', #30, #75, #327, .T. ) ;
#181 = AXIS2_PLACEMENT_3D ( 'NONE', #40, #274, #92 ) ;
#182 = CIRCLE ( 'NONE', #27, 10.00000000000000000 ) ;
#183 = VERTEX_POINT ( 'NONE', #171 ) ;
#184 = ORIENTED_EDGE ( 'NONE', *, *, #41, .F. ) ;
#185 = EDGE_LOOP ( 'NONE', ( #112, #127, #60, #294 ) ) ;
#186 = DATE_AND_TIME ( #106, #267 ) ;
#187 = ADVANCED_FACE ( 'NONE', ( #139 ), #247, .T. ) ;
#188 = VERTEX_POINT ( 'NONE', #148 ) ;
#189 = APPLICATION_PROTOCOL_DEFINITION ( 'international standard', 'config_control_design', 1994, #221 ) ;
#190 = VERTEX_POINT ( 'NONE', #254 ) ;
#191 = DIRECTION ( 'NONE',  ( 0.000000000000000000, 0.000000000000000000, 1.000000000000000000 ) ) ;
#192 = LINE ( 'NONE', #163, #265 ) ;
#193 = APPROVAL_DATE_TIME ( #186, #174 ) ;
#194 = AXIS2_PLACEMENT_3D ( 'NONE', #216, #57, #260 ) ;
#195 = DIRECTION ( 'NONE',  ( -1.000000000000000000, -0.000000000000000000, -0.000000000000000000 ) ) ;
#196 = CARTESIAN_POINT ( 'NONE',  ( 2.999999999999999112, 0.000000000000000000, 0.000000000000000000 ) ) ;
#197 = PERSON_AND_ORGANIZATION_ROLE ( 'design_supplier' ) ;
#198 = LINE ( 'NONE', #302, #326 ) ;
#199 = AXIS2_PLACEMENT_3D ( 'NONE', #227, #251, #175 ) ;
#200 = SECURITY_CLASSIFICATION ( '', '', #63 ) ;
#201 = LINE ( 'NONE', #173, #4 ) ;
#202 = DATE_TIME_ROLE ( 'classification_date' ) ;
#203 = FACE_OUTER_BOUND ( 'NONE', #155, .T. ) ;
#204 = CARTESIAN_POINT ( 'NONE',  ( -3.000000000000000000, 0.000000000000000000, 12.69999999999999929 ) ) ;
#205 = ADVANCED_FACE ( 'NONE', ( #172, #67 ), #142, .F. ) ;
#206 = AXIS2_PLACEMENT_3D ( 'NONE', #37, #164, #31 ) ;
#207 = ORIENTED_EDGE ( 'NONE', *, *, #161, .F. ) ;
#208 = AXIS2_PLACEMENT_3D ( 'NONE', #196, #42, #43 ) ;
#209 = CC_DESIGN_SECURITY_CLASSIFICATION ( #200, ( #53 ) ) ;
#210 = EDGE_LOOP ( 'NONE', ( #36, #84, #137, #257 ) ) ;
#211 = MECHANICAL_CONTEXT ( 'NONE', #151, 'mechanical' ) ;
#212 = CARTESIAN_POINT ( 'NONE',  ( -3.000000000000000444, 0.000000000000000000, 0.000000000000000000 ) ) ;
#213 = DIRECTION ( 'NONE',  ( 0.000000000000000000, 0.000000000000000000, 1.000000000000000000 ) ) ;
#214 = DIRECTION ( 'NONE',  ( 0.000000000000000000, 0.000000000000000000, 1.000000000000000000 ) ) ;
#215 = DIRECTION ( 'NONE',  ( 0.000000000000000000, 0.000000000000000000, 1.000000000000000000 ) ) ;
#216 = CARTESIAN_POINT ( 'NONE',  ( -2.500000000000000444, 0.000000000000000000, 0.000000000000000000 ) ) ;
#217 = EDGE_LOOP ( 'NONE', ( #282, #2 ) ) ;
#218 = DIRECTION ( 'NONE',  ( -1.000000000000000000, -0.000000000000000000, -0.000000000000000000 ) ) ;
#219 = AXIS2_PLACEMENT_3D ( 'NONE', #6, #82, #105 ) ;
#220 = CIRCLE ( 'NONE', #276, 10.00000000000000000 ) ;
#221 = APPLICATION_CONTEXT ( 'configuration controlled 3d designs of mechanical parts and assemblies' ) ;
#222 = LINE ( 'NONE', #143, #153 ) ;
#223 = APPROVAL_STATUS ( 'not_yet_approved' ) ;
#224 = DIRECTION ( 'NONE',  ( -0.000000000000000000, 0.000000000000000000, 1.000000000000000000 ) ) ;
#225 = CYLINDRICAL_SURFACE ( 'NONE', #158, 10.00000000000000000 ) ;
#226 = CIRCLE ( 'NONE', #141, 12.69999999999999929 ) ;
#227 = CARTESIAN_POINT ( 'NONE',  ( -3.000000000000000000, 0.000000000000000000, 0.000000000000000000 ) ) ;
#228 = EDGE_CURVE ( 'NONE', #166, #51, #201, .T. ) ;
#229 = CARTESIAN_POINT ( 'NONE',  ( -2.500000000000000444, 0.000000000000000000, 0.000000000000000000 ) ) ;
#230 = APPROVAL ( #223, 'UNSPECIFIED' ) ;
#231 = ORIENTED_EDGE ( 'NONE', *, *, #61, .T. ) ;
#232 = CC_DESIGN_PERSON_AND_ORGANIZATION_ASSIGNMENT ( #7, #29, ( #162 ) ) ;
#233 = CC_DESIGN_DATE_AND_TIME_ASSIGNMENT ( #117, #202, ( #200 ) ) ;
#234 = VECTOR ( 'NONE', #330, 1000.000000000000000 ) ;
#235 = MANIFOLD_SOLID_BREP ( 'Ðý×', #179 ) ;
#236 = DIRECTION ( 'NONE',  ( -1.000000000000000000, -0.000000000000000000, -0.000000000000000000 ) ) ;
#237 = ORIENTED_EDGE ( 'NONE', *, *, #324, .F. ) ;
#238 = CARTESIAN_POINT ( 'NONE',  ( -3.000000000000000000, 0.000000000000000000, 0.000000000000000000 ) ) ;
#239 = FACE_OUTER_BOUND ( 'NONE', #210, .T. ) ;
#240 = AXIS2_PLACEMENT_3D ( 'NONE', #212, #316, #215 ) ;
#241 = DATE_AND_TIME ( #133, #35 ) ;
#242 = ORGANIZATION ( 'UNSPECIFIED', 'UNSPECIFIED', '' ) ;
#243 = EDGE_LOOP ( 'NONE', ( #156, #130, #245, #23 ) ) ;
#244 =( NAMED_UNIT ( * ) PLANE_ANGLE_UNIT ( ) SI_UNIT ( $, .RADIAN. ) );
#245 = ORIENTED_EDGE ( 'NONE', *, *, #324, .T. ) ;
#246 = PERSON_AND_ORGANIZATION_ROLE ( 'creator' ) ;
#247 = CYLINDRICAL_SURFACE ( 'NONE', #181, 12.69999999999999929 ) ;
#248 = APPROVAL_DATE_TIME ( #91, #301 ) ;
#249 = ADVANCED_FACE ( 'NONE', ( #250 ), #16, .F. ) ;
#250 = FACE_OUTER_BOUND ( 'NONE', #28, .T. ) ;
#251 = DIRECTION ( 'NONE',  ( -1.000000000000000000, -0.000000000000000000, -0.000000000000000000 ) ) ;
#252 = CC_DESIGN_PERSON_AND_ORGANIZATION_ASSIGNMENT ( #328, #197, ( #53 ) ) ;
#253 = CARTESIAN_POINT ( 'NONE',  ( -1.614212418857619014, 0.000000000000000000, 0.000000000000000000 ) ) ;
#254 = CARTESIAN_POINT ( 'NONE',  ( 2.999999999999999112, 0.000000000000000000, 10.00000000000000000 ) ) ;
#255 = EDGE_CURVE ( 'NONE', #50, #256, #198, .T. ) ;
#256 = VERTEX_POINT ( 'NONE', #273 ) ;
#257 = ORIENTED_EDGE ( 'NONE', *, *, #228, .F. ) ;
#258 = CARTESIAN_POINT ( 'NONE',  ( -3.000000000000000000, 10.00000000000000000, 0.000000000000000000 ) ) ;
#259 = CARTESIAN_POINT ( 'NONE',  ( -3.000000000000000444, 0.000000000000000000, 10.00000000000000000 ) ) ;
#260 = DIRECTION ( 'NONE',  ( 0.000000000000000000, 0.000000000000000000, -1.000000000000000000 ) ) ;
#261 = ADVANCED_BREP_SHAPE_REPRESENTATION ( 'QB-CTZHWP-20-780-M', ( #235, #305 ), #281 ) ;
#262 = DIRECTION ( 'NONE',  ( -1.000000000000000000, -0.000000000000000000, -0.000000000000000000 ) ) ;
#263 = ORIENTED_EDGE ( 'NONE', *, *, #180, .T. ) ;
#264 = EDGE_CURVE ( 'NONE', #188, #75, #182, .T. ) ;
#265 = VECTOR ( 'NONE', #262, 1000.000000000000000 ) ;
#266 = DIRECTION ( 'NONE',  ( -1.000000000000000000, -0.000000000000000000, -0.000000000000000000 ) ) ;
#267 = LOCAL_TIME ( 9, 35, 53.00000000000000000, #38 ) ;
#268 = VERTEX_POINT ( 'NONE', #204 ) ;
#269 = COORDINATED_UNIVERSAL_TIME_OFFSET ( 8, 0, .AHEAD. ) ;
#270 = ADVANCED_FACE ( 'NONE', ( #150 ), #71, .F. ) ;
#271 = CYLINDRICAL_SURFACE ( 'NONE', #108, 10.00000000000000000 ) ;
#272 = CARTESIAN_POINT ( 'NONE',  ( 2.999999999999999112, 12.69999999999999929, 0.000000000000000000 ) ) ;
#273 = CARTESIAN_POINT ( 'NONE',  ( -3.000000000000000444, 1.224646799147353256E-15, -10.00000000000000000 ) ) ;
#274 = DIRECTION ( 'NONE',  ( -1.000000000000000000, -0.000000000000000000, -0.000000000000000000 ) ) ;
#275 = AXIS2_PLACEMENT_3D ( 'NONE', #258, #8, #132 ) ;
#276 = AXIS2_PLACEMENT_3D ( 'NONE', #229, #333, #99 ) ;
#277 = CARTESIAN_POINT ( 'NONE',  ( 2.500000000000000888, 0.000000000000000000, 0.000000000000000000 ) ) ;
#278 = EDGE_CURVE ( 'NONE', #166, #50, #220, .T. ) ;
#279 = ORIENTED_EDGE ( 'NONE', *, *, #41, .T. ) ;
#280 = CIRCLE ( 'NONE', #134, 12.69999999999999929 ) ;
#281 =( GEOMETRIC_REPRESENTATION_CONTEXT ( 3 ) GLOBAL_UNCERTAINTY_ASSIGNED_CONTEXT ( ( #152 ) ) GLOBAL_UNIT_ASSIGNED_CONTEXT ( ( #79, #244, #131 ) ) REPRESENTATION_CONTEXT ( 'NONE', 'WORKASPACE' ) );
#282 = ORIENTED_EDGE ( 'NONE', *, *, #124, .T. ) ;
#283 = ORIENTED_EDGE ( 'NONE', *, *, #255, .F. ) ;
#284 = VERTEX_POINT ( 'NONE', #160 ) ;
#285 = APPLICATION_PROTOCOL_DEFINITION ( 'international standard', 'config_control_design', 1994, #151 ) ;
#286 = ORIENTED_EDGE ( 'NONE', *, *, #264, .F. ) ;
#287 = AXIS2_PLACEMENT_3D ( 'NONE', #125, #178, #308 ) ;
#288 = CARTESIAN_POINT ( 'NONE',  ( 0.000000000000000000, 0.000000000000000000, 0.000000000000000000 ) ) ;
#289 = FACE_OUTER_BOUND ( 'NONE', #32, .T. ) ;
#290 = PERSON_AND_ORGANIZATION ( #165, #242 ) ;
#291 = EDGE_CURVE ( 'NONE', #50, #166, #140, .T. ) ;
#292 = DIRECTION ( 'NONE',  ( -1.000000000000000000, -0.000000000000000000, -0.000000000000000000 ) ) ;
#293 = DIRECTION ( 'NONE',  ( -1.000000000000000000, -0.000000000000000000, -0.000000000000000000 ) ) ;
#294 = ORIENTED_EDGE ( 'NONE', *, *, #264, .T. ) ;
#295 = CIRCLE ( 'NONE', #81, 12.69999999999999929 ) ;
#296 = DIRECTION ( 'NONE',  ( 0.000000000000000000, 0.000000000000000000, 1.000000000000000000 ) ) ;
#297 = LOCAL_TIME ( 9, 35, 53.00000000000000000, #144 ) ;
#298 = CARTESIAN_POINT ( 'NONE',  ( -2.500000000000000444, 0.000000000000000000, 10.00000000000000000 ) ) ;
#299 = CARTESIAN_POINT ( 'NONE',  ( 2.500000000000000888, 1.224646799147353256E-15, -10.00000000000000000 ) ) ;
#300 = COORDINATED_UNIVERSAL_TIME_OFFSET ( 8, 0, .AHEAD. ) ;
#301 = APPROVAL ( #113, 'UNSPECIFIED' ) ;
#302 = CARTESIAN_POINT ( 'NONE',  ( -1.614212418857619014, 1.224646799147353256E-15, -10.00000000000000000 ) ) ;
#303 = PERSON_AND_ORGANIZATION ( #165, #242 ) ;
#304 = AXIS2_PLACEMENT_3D ( 'NONE', #320, #292, #15 ) ;
#305 = AXIS2_PLACEMENT_3D ( 'NONE', #288, #191, #83 ) ;
#306 = DIRECTION ( 'NONE',  ( -1.000000000000000000, -0.000000000000000000, -0.000000000000000000 ) ) ;
#307 = CARTESIAN_POINT ( 'NONE',  ( 3.000000000000000000, 0.000000000000000000, 0.000000000000000000 ) ) ;
#308 = DIRECTION ( 'NONE',  ( 0.000000000000000000, 0.000000000000000000, -1.000000000000000000 ) ) ;
#309 = AXIS2_PLACEMENT_3D ( 'NONE', #20, #97, #121 ) ;
#310 = EDGE_LOOP ( 'NONE', ( #107, #87 ) ) ;
#311 = EDGE_CURVE ( 'NONE', #30, #190, #49, .T. ) ;
#312 = CC_DESIGN_PERSON_AND_ORGANIZATION_ASSIGNMENT ( #55, #11, ( #18 ) ) ;
#313 = LOCAL_TIME ( 9, 35, 53.00000000000000000, #300 ) ;
#314 = ORIENTED_EDGE ( 'NONE', *, *, #228, .T. ) ;
#315 = FACE_OUTER_BOUND ( 'NONE', #54, .T. ) ;
#316 = DIRECTION ( 'NONE',  ( -1.000000000000000000, -0.000000000000000000, -0.000000000000000000 ) ) ;
#317 = CARTESIAN_POINT ( 'NONE',  ( -1.614212418857619014, 0.000000000000000000, 12.69999999999999929 ) ) ;
#318 = EDGE_LOOP ( 'NONE', ( #110, #263, #102, #25 ) ) ;
#319 = EDGE_CURVE ( 'NONE', #183, #268, #226, .T. ) ;
#320 = CARTESIAN_POINT ( 'NONE',  ( -1.614212418857619014, 0.000000000000000000, 0.000000000000000000 ) ) ;
#321 = CC_DESIGN_PERSON_AND_ORGANIZATION_ASSIGNMENT ( #19, #246, ( #53 ) ) ;
#322 = EDGE_LOOP ( 'NONE', ( #184, #207 ) ) ;
#323 = APPROVAL_ROLE ( '' ) ;
#324 = EDGE_CURVE ( 'NONE', #1, #268, #138, .T. ) ;
#325 = DIRECTION ( 'NONE',  ( 0.000000000000000000, 0.000000000000000000, 1.000000000000000000 ) ) ;
#326 = VECTOR ( 'NONE', #306, 1000.000000000000000 ) ;
#327 = LINE ( 'NONE', #64, #234 ) ;
#328 = PERSON_AND_ORGANIZATION ( #165, #242 ) ;
#329 = DIRECTION ( 'NONE',  ( -1.000000000000000000, 0.000000000000000000, -0.000000000000000000 ) ) ;
#330 = DIRECTION ( 'NONE',  ( -1.000000000000000000, -0.000000000000000000, -0.000000000000000000 ) ) ;
#331 = LOCAL_TIME ( 9, 35, 53.00000000000000000, #269 ) ;
#332 = DIRECTION ( 'NONE',  ( -1.000000000000000000, -0.000000000000000000, -0.000000000000000000 ) ) ;
#333 = DIRECTION ( 'NONE',  ( 1.000000000000000000, 0.000000000000000000, 0.000000000000000000 ) ) ;
#334 = ADVANCED_FACE ( 'NONE', ( #315 ), #5, .T. ) ;
#335 = APPROVAL_PERSON_ORGANIZATION ( #59, #301, #323 ) ;
ENDSEC;
END-ISO-10303-21;
